  0
SECTION
  2
HEADER
  9
$ACADVER
  1
AC1015
  9
$ACADMAINTVER
 70
     6
  9
$DWGCODEPAGE
  3
ANSI_1254
  9
$INSBASE
 10
0.0
 20
0.0
 30
0.0
  9
$EXTMIN
 10
0.0
 20
0.0
 30
0.0
  9
$EXTMAX
 10
279.4
 20
215.9
 30
0.0
  9
$LIMMIN
 10
0.0
 20
0.0
  9
$LIMMAX
 10
279.4
 20
215.9
  9
$ORTHOMODE
 70
     0
  9
$REGENMODE
 70
     1
  9
$FILLMODE
 70
     1
  9
$QTEXTMODE
 70
     0
  9
$MIRRTEXT
 70
     1
  9
$LTSCALE
 40
1.0
  9
$ATTMODE
 70
     1
  9
$TEXTSIZE
 40
3.5
  9
$TRACEWID
 40
1.0
  9
$TEXTSTYLE
  7
Standard
  9
$CLAYER
  8
0
  9
$CELTYPE
  6
ByLayer
  9
$CECOLOR
 62
   256
  9
$CELTSCALE
 40
1.0
  9
$DISPSILH
 70
     0
  9
$DIMSCALE
 40
1.0
  9
$DIMASZ
 40
3.5
  9
$DIMEXO
 40
1.0
  9
$DIMDLI
 40
3.75
  9
$DIMRND
 40
0.0
  9
$DIMDLE
 40
0.0
  9
$DIMEXE
 40
1.0
  9
$DIMTP
 40
0.0
  9
$DIMTM
 40
0.0
  9
$DIMTXT
 40
3.5
  9
$DIMCEN
 40
2.5
  9
$DIMTSZ
 40
0.0
  9
$DIMTOL
 70
     0
  9
$DIMLIM
 70
     0
  9
$DIMTIH
 70
     1
  9
$DIMTOH
 70
     1
  9
$DIMSE1
 70
     0
  9
$DIMSE2
 70
     0
  9
$DIMTAD
 70
     1
  9
$DIMZIN
 70
     0
  9
$DIMBLK
  1

  9
$DIMASO
 70
     1
  9
$DIMSHO
 70
     1
  9
$DIMPOST
  1

  9
$DIMAPOST
  1

  9
$DIMALT
 70
     0
  9
$DIMALTD
 70
     3
  9
$DIMALTF
 40
0.0393700787
  9
$DIMLFAC
 40
1.0
  9
$DIMTOFL
 70
     1
  9
$DIMTVP
 40
0.0
  9
$DIMTIX
 70
     0
  9
$DIMSOXD
 70
     0
  9
$DIMSAH
 70
     0
  9
$DIMBLK1
  1

  9
$DIMBLK2
  1

  9
$DIMSTYLE
  2
ISO-25
  9
$DIMCLRD
 70
     0
  9
$DIMCLRE
 70
     0
  9
$DIMCLRT
 70
     0
  9
$DIMTFAC
 40
1.0
  9
$DIMGAP
 40
1.524
  9
$DIMJUST
 70
     0
  9
$DIMSD1
 70
     0
  9
$DIMSD2
 70
     0
  9
$DIMTOLJ
 70
     0
  9
$DIMTZIN
 70
     0
  9
$DIMALTZ
 70
     0
  9
$DIMALTTZ
 70
     0
  9
$DIMUPT
 70
     0
  9
$DIMDEC
 70
     2
  9
$DIMTDEC
 70
     2
  9
$DIMALTU
 70
     2
  9
$DIMALTTD
 70
     3
  9
$DIMTXSTY
  7
Standard
  9
$DIMAUNIT
 70
     0
  9
$DIMADEC
 70
     2
  9
$DIMALTRND
 40
0.0
  9
$DIMAZIN
 70
     0
  9
$DIMDSEP
 70
    44
  9
$DIMATFIT
 70
     3
  9
$DIMFRAC
 70
     0
  9
$DIMLDRBLK
  1

  9
$DIMLUNIT
 70
     2
  9
$DIMLWD
 70
    -2
  9
$DIMLWE
 70
    -2
  9
$DIMTMOVE
 70
     0
  9
$LUNITS
 70
     2
  9
$LUPREC
 70
     2
  9
$SKETCHINC
 40
1.0
  9
$FILLETRAD
 40
10.0
  9
$AUNITS
 70
     0
  9
$AUPREC
 70
     2
  9
$MENU
  1
.
  9
$ELEVATION
 40
0.0
  9
$PELEVATION
 40
0.0
  9
$THICKNESS
 40
0.0
  9
$LIMCHECK
 70
     0
  9
$CHAMFERA
 40
0.0
  9
$CHAMFERB
 40
0.0
  9
$CHAMFERC
 40
0.0
  9
$CHAMFERD
 40
0.0
  9
$SKPOLY
 70
     0
  9
$TDCREATE
 40
2460682.519533241
  9
$TDUCREATE
 40
2460682.394533241
  9
$TDUPDATE
 40
2460682.51953346
  9
$TDUUPDATE
 40
2460682.39453346
  9
$TDINDWG
 40
0.0000000116
  9
$TDUSRTIMER
 40
0.0000000116
  9
$USRTIMER
 70
     1
  9
$ANGBASE
 50
0.0
  9
$ANGDIR
 70
     0
  9
$PDMODE
 70
     0
  9
$PDSIZE
 40
-1.0
  9
$PLINEWID
 40
0.0
  9
$SPLFRAME
 70
     0
  9
$SPLINETYPE
 70
     6
  9
$SPLINESEGS
 70
     8
  9
$HANDSEED
  5
BF
  9
$SURFTAB1
 70
     6
  9
$SURFTAB2
 70
     6
  9
$SURFTYPE
 70
     6
  9
$SURFU
 70
     6
  9
$SURFV
 70
     6
  9
$UCSBASE
  2

  9
$UCSNAME
  2

  9
$UCSORG
 10
0.0
 20
0.0
 30
0.0
  9
$UCSXDIR
 10
1.0
 20
0.0
 30
0.0
  9
$UCSYDIR
 10
0.0
 20
1.0
 30
0.0
  9
$UCSORTHOREF
  2

  9
$UCSORTHOVIEW
 70
     0
  9
$UCSORGTOP
 10
0.0
 20
0.0
 30
0.0
  9
$UCSORGBOTTOM
 10
0.0
 20
0.0
 30
0.0
  9
$UCSORGLEFT
 10
0.0
 20
0.0
 30
0.0
  9
$UCSORGRIGHT
 10
0.0
 20
0.0
 30
0.0
  9
$UCSORGFRONT
 10
0.0
 20
0.0
 30
0.0
  9
$UCSORGBACK
 10
0.0
 20
0.0
 30
0.0
  9
$PUCSBASE
  2

  9
$PUCSNAME
  2

  9
$PUCSORG
 10
0.0
 20
0.0
 30
0.0
  9
$PUCSXDIR
 10
1.0
 20
0.0
 30
0.0
  9
$PUCSYDIR
 10
0.0
 20
1.0
 30
0.0
  9
$PUCSORTHOREF
  2

  9
$PUCSORTHOVIEW
 70
     0
  9
$PUCSORGTOP
 10
0.0
 20
0.0
 30
0.0
  9
$PUCSORGBOTTOM
 10
0.0
 20
0.0
 30
0.0
  9
$PUCSORGLEFT
 10
0.0
 20
0.0
 30
0.0
  9
$PUCSORGRIGHT
 10
0.0
 20
0.0
 30
0.0
  9
$PUCSORGFRONT
 10
0.0
 20
0.0
 30
0.0
  9
$PUCSORGBACK
 10
0.0
 20
0.0
 30
0.0
  9
$USERI1
 70
     0
  9
$USERI2
 70
     0
  9
$USERI3
 70
     0
  9
$USERI4
 70
     0
  9
$USERI5
 70
     0
  9
$USERR1
 40
0.0
  9
$USERR2
 40
0.0
  9
$USERR3
 40
0.0
  9
$USERR4
 40
0.0
  9
$USERR5
 40
0.0
  9
$WORLDVIEW
 70
     1
  9
$SHADEDGE
 70
     3
  9
$SHADEDIF
 70
    70
  9
$TILEMODE
 70
     1
  9
$MAXACTVP
 70
    64
  9
$PINSBASE
 10
0.0
 20
0.0
 30
0.0
  9
$PLIMCHECK
 70
     0
  9
$PEXTMIN
 10
1.0000000000E+20
 20
1.0000000000E+20
 30
1.0000000000E+20
  9
$PEXTMAX
 10
-1.0000000000E+20
 20
-1.0000000000E+20
 30
-1.0000000000E+20
  9
$PLIMMIN
 10
0.0
 20
0.0
  9
$PLIMMAX
 10
420.0
 20
297.0
  9
$UNITMODE
 70
     0
  9
$VISRETAIN
 70
     1
  9
$PLINEGEN
 70
     0
  9
$PSLTSCALE
 70
     1
  9
$TREEDEPTH
 70
  3020
  9
$CMLSTYLE
  2
Standard
  9
$CMLJUST
 70
     0
  9
$CMLSCALE
 40
20.0
  9
$PROXYGRAPHICS
 70
     1
  9
$MEASUREMENT
 70
     1
  9
$CELWEIGHT
370
    -1
  9
$ENDCAPS
280
     0
  9
$JOINSTYLE
280
     0
  9
$LWDISPLAY
290
     1
  9
$INSUNITS
 70
     4
  9
$HYPERLINKBASE
  1

  9
$STYLESHEET
  1

  9
$XEDIT
290
     1
  9
$CEPSNTYPE
380
     0
  9
$PSTYLEMODE
290
     1
  9
$FINGERPRINTGUID
  2
{d9e16fbc-7e6d-48a6-bc84-7e889303f472}
  9
$VERSIONGUID
  2
{FAEB1C32-E019-11D5-929B-00C0DF256EC4}
  9
$EXTNAMES
290
     1
  9
$PSVPSCALE
 40
0.0
  9
$OLESTARTUP
290
     0
  0
ENDSEC
  0
SECTION
  2
CLASSES
  0
CLASS
  1
ACDBDICTIONARYWDFLT
  2
AcDbDictionaryWithDefault
  3
ObjectDBX Classes
 90
        0
280
     0
281
     0
  0
CLASS
  1
VISUALSTYLE
  2
AcDbVisualStyle
  3
ObjectDBX Classes
 90
     4095
280
     0
281
     0
  0
CLASS
  1
MATERIAL
  2
AcDbMaterial
  3
ObjectDBX Classes
 90
     1153
280
     0
281
     0
  0
CLASS
  1
SCALE
  2
AcDbScale
  3
ObjectDBX Classes
 90
     1153
280
     0
281
     0
  0
CLASS
  1
TABLESTYLE
  2
AcDbTableStyle
  3
ObjectDBX Classes
 90
     4095
280
     0
281
     0
  0
CLASS
  1
MLEADERSTYLE
  2
AcDbMLeaderStyle
  3
ACDB_MLEADERSTYLE_CLASS
 90
     4095
280
     0
281
     0
  0
CLASS
  1
SUN
  2
AcDbSun
  3
SCENEOE
 90
     1153
280
     0
281
     0
  0
CLASS
  1
ACDBPLACEHOLDER
  2
AcDbPlaceHolder
  3
ObjectDBX Classes
 90
        0
280
     0
281
     0
  0
CLASS
  1
LAYOUT
  2
AcDbLayout
  3
ObjectDBX Classes
 90
        0
280
     0
281
     0
  0
ENDSEC
  0
SECTION
  2
TABLES
  0
TABLE
  2
VPORT
  5
8
330
0
100
AcDbSymbolTable
 70
     1
  0
VPORT
  5
29
330
8
100
AcDbSymbolTableRecord
100
AcDbViewportTableRecord
  2
*Active
 70
     0
 10
0.0
 20
0.0
 11
1.0
 21
1.0
 12
139.7
 22
107.95
 13
0.0
 23
0.0
 14
10.0
 24
10.0
 15
10.0
 25
10.0
 16
0.0
 26
0.0
 36
1.0
 17
0.0
 27
0.0
 37
0.0
 40
215.9
 41
1.2941176471
 42
50.0
 43
0.0
 44
0.0
 50
0.0
 51
0.0
 71
     0
 72
  2000
 73
     1
 74
     3
 75
     0
 76
     0
 77
     0
 78
     0
281
     0
 65
     1
110
0.0
120
0.0
130
0.0
111
1.0
121
0.0
131
0.0
112
0.0
122
1.0
132
0.0
 79
     0
146
0.0
  0
ENDTAB
  0
TABLE
  2
LTYPE
  5
5
330
0
100
AcDbSymbolTable
 70
     6
  0
LTYPE
  5
14
330
5
100
AcDbSymbolTableRecord
100
AcDbLinetypeTableRecord
  2
ByBlock
 70
     0
  3

 72
    65
 73
     0
 40
0.0
  0
LTYPE
  5
15
330
5
100
AcDbSymbolTableRecord
100
AcDbLinetypeTableRecord
  2
ByLayer
 70
     0
  3

 72
    65
 73
     0
 40
0.0
  0
LTYPE
  5
16
330
5
100
AcDbSymbolTableRecord
100
AcDbLinetypeTableRecord
  2
Continuous
 70
     0
  3
Solid line
 72
    65
 73
     0
 40
0.0
  0
LTYPE
  5
6E
330
5
100
AcDbSymbolTableRecord
100
AcDbLinetypeTableRecord
  2
HIDDEN
 70
     0
  3
Hidden __ __ __ __ __ __ __ __ __ __ __ __ __ __
 72
    65
 73
     2
 40
1.905
 49
1.27
 74
     0
 49
-0.635
 74
     0
  0
LTYPE
  5
6F
330
5
100
AcDbSymbolTableRecord
100
AcDbLinetypeTableRecord
  2
PHANTOM
 70
     0
  3
Phantom ______  __  __  ______  __  __  ______
 72
    65
 73
     6
 40
12.7
 49
6.35
 74
     0
 49
-1.27
 74
     0
 49
1.27
 74
     0
 49
-1.27
 74
     0
 49
1.27
 74
     0
 49
-1.27
 74
     0
  0
LTYPE
  5
70
330
5
100
AcDbSymbolTableRecord
100
AcDbLinetypeTableRecord
  2
CENTER
 70
     0
  3
Center ____ _ ____ _ ____ _ ____ _ ____ _ ____
 72
    65
 73
     4
 40
10.16
 49
6.35
 74
     0
 49
-1.27
 74
     0
 49
1.27
 74
     0
 49
-1.27
 74
     0
  0
LTYPE
  5
71
330
5
100
AcDbSymbolTableRecord
100
AcDbLinetypeTableRecord
  2
CENTERX2
 70
     0
  3
Center (2x) ________  __  ________  __  _____
 72
    65
 73
     4
 40
20.32
 49
12.7
 74
     0
 49
-2.54
 74
     0
 49
2.54
 74
     0
 49
-2.54
 74
     0
  0
LTYPE
  5
72
330
5
100
AcDbSymbolTableRecord
100
AcDbLinetypeTableRecord
  2
DOT2
 70
     0
  3
Dot (.5x) ........................................
 72
    65
 73
     2
 40
0.635
 49
0.0
 74
     0
 49
-0.635
 74
     0
  0
ENDTAB
  0
TABLE
  2
LAYER
  5
2
330
0
100
AcDbSymbolTable
 70
    17
  0
LAYER
  5
10
330
2
100
AcDbSymbolTableRecord
100
AcDbLayerTableRecord
  2
0
 70
     0
 62
     7
  6
Continuous
370
    -3
390
F
  0
LAYER
  5
73
330
2
100
AcDbSymbolTableRecord
100
AcDbLayerTableRecord
  2
FORMAT
 70
     0
 62
     7
  6
Continuous
370
    -3
390
F
  0
LAYER
  5
74
330
2
100
AcDbSymbolTableRecord
100
AcDbLayerTableRecord
  2
YARDIMCI_GEOMETRI
 70
     0
 62
    -6
  6
Continuous
290
     0
370
    -3
390
F
  0
LAYER
  5
75
330
2
100
AcDbSymbolTableRecord
100
AcDbLayerTableRecord
  2
SAYFA_CERCEVESI
 70
     0
 62
     7
  6
Continuous
370
    25
390
F
  0
LAYER
  5
76
330
2
100
AcDbSymbolTableRecord
100
AcDbLayerTableRecord
  2
ANTET
 70
     0
 62
     7
  6
Continuous
370
    -3
390
F
  0
LAYER
  5
77
330
2
100
AcDbSymbolTableRecord
100
AcDbLayerTableRecord
  2
OLCU
 70
     0
 62
   150
  6
Continuous
370
    -3
390
F
  0
LAYER
  5
78
330
2
100
AcDbSymbolTableRecord
100
AcDbLayerTableRecord
  2
METIN
 70
     0
 62
    96
  6
Continuous
370
    -3
390
F
  0
LAYER
  5
79
330
2
100
AcDbSymbolTableRecord
100
AcDbLayerTableRecord
  2
BALON
 70
     0
 62
     5
  6
Continuous
370
    -3
390
F
  0
LAYER
  5
7A
330
2
100
AcDbSymbolTableRecord
100
AcDbLayerTableRecord
  2
VURGU
 70
     0
 62
     7
  6
Continuous
370
    -3
390
F
  0
LAYER
  5
7B
330
2
100
AcDbSymbolTableRecord
100
AcDbLayerTableRecord
  2
SILIK
 70
     0
 62
     7
  6
Continuous
370
    -3
390
F
  0
LAYER
  5
7C
330
2
100
AcDbSymbolTableRecord
100
AcDbLayerTableRecord
  2
MODEL
 70
     0
 62
     7
  6
Continuous
370
    -3
390
F
  0
LAYER
  5
7D
330
2
100
AcDbSymbolTableRecord
100
AcDbLayerTableRecord
  2
DETAYLANDıRMA
 70
     0
 62
   190
  6
Continuous
370
    -3
390
F
  0
LAYER
  5
7E
330
2
100
AcDbSymbolTableRecord
100
AcDbLayerTableRecord
  2
TOLERANS
 70
     0
 62
   230
  6
Continuous
370
    -3
390
F
  0
LAYER
  5
7F
330
2
100
AcDbSymbolTableRecord
100
AcDbLayerTableRecord
  2
MERKEZ_CIZGILERI
 70
     0
 62
    30
  6
Continuous
370
    -3
390
F
  0
LAYER
  5
80
330
2
100
AcDbSymbolTableRecord
100
AcDbLayerTableRecord
  2
KESIT-DETAY_CIZGILERI
 70
     0
 62
     7
  6
Continuous
370
    -3
390
F
  0
LAYER
  5
81
330
2
100
AcDbSymbolTableRecord
100
AcDbLayerTableRecord
  2
\U+041E\U+0421\U+0415\U+0412\U+042B\U+0415
 70
     0
 62
     7
  6
Continuous
370
    -3
390
F
  0
LAYER
  5
82
330
2
100
AcDbSymbolTableRecord
100
AcDbLayerTableRecord
  2
\U+0412\U+041E\U+0414\U+042F\U+041D\U+042B\U+0415_\U+0417\U+041D\U+0410\U+041A\U+0418
 70
     0
 62
    11
  6
Continuous
370
    -3
390
F
  0
ENDTAB
  0
TABLE
  2
STYLE
  5
3
330
0
100
AcDbSymbolTable
 70
     1
  0
STYLE
  5
11
330
3
100
AcDbSymbolTableRecord
100
AcDbTextStyleTableRecord
  2
Standard
 70
     0
 40
0.0
 41
1.0
 50
0.0
 71
     0
 42
3.5
  3
txt
  4

  0
ENDTAB
  0
TABLE
  2
VIEW
  5
6
330
0
100
AcDbSymbolTable
 70
     0
  0
ENDTAB
  0
TABLE
  2
UCS
  5
7
330
0
100
AcDbSymbolTable
 70
     0
  0
ENDTAB
  0
TABLE
  2
APPID
  5
9
330
0
100
AcDbSymbolTable
 70
     1
  0
APPID
  5
12
330
9
100
AcDbSymbolTableRecord
100
AcDbRegAppTableRecord
  2
ACAD
 70
     0
  0
ENDTAB
  0
TABLE
  2
DIMSTYLE
  5
A
330
0
100
AcDbSymbolTable
 70
     1
100
AcDbDimStyleTable
  0
DIMSTYLE
105
27
330
A
100
AcDbSymbolTableRecord
100
AcDbDimStyleTableRecord
  2
ISO-25
 70
     0
 41
2.5
 42
0.625
 43
3.75
 44
1.25
 73
     0
 74
     0
 77
     1
 78
     8
140
2.5
141
2.5
143
0.0393700787
147
0.625
171
     3
172
     1
178
     0
271
     2
272
     2
274
     3
278
    44
283
     0
284
     8
340
11
  0
ENDTAB
  0
TABLE
  2
BLOCK_RECORD
  5
1
330
0
100
AcDbSymbolTable
 70
     2
  0
BLOCK_RECORD
  5
1F
330
1
100
AcDbSymbolTableRecord
100
AcDbBlockTableRecord
  2
*Model_Space
340
22
  0
BLOCK_RECORD
  5
1B
330
1
100
AcDbSymbolTableRecord
100
AcDbBlockTableRecord
  2
*Paper_Space
340
1E
  0
BLOCK_RECORD
  5
23
330
1
100
AcDbSymbolTableRecord
100
AcDbBlockTableRecord
  2
*Paper_Space0
340
26
  0
BLOCK_RECORD
  5
A2
330
1
100
AcDbSymbolTableRecord
100
AcDbBlockTableRecord
  2
SW_CENTERMARKSYMBOL_0
340
0
102
{BLKREFS
331
AD
102
}
  0
ENDTAB
  0
ENDSEC
  0
SECTION
  2
BLOCKS
  0
BLOCK
  5
20
330
1F
100
AcDbEntity
  8
0
100
AcDbBlockBegin
  2
*Model_Space
 70
     0
 10
0.0
 20
0.0
 30
0.0
  3
*Model_Space
  1

  0
ENDBLK
  5
21
330
1F
100
AcDbEntity
  8
0
100
AcDbBlockEnd
  0
BLOCK
  5
1C
330
1B
100
AcDbEntity
 67
     1
  8
0
100
AcDbBlockBegin
  2
*Paper_Space
 70
     0
 10
0.0
 20
0.0
 30
0.0
  3
*Paper_Space
  1

  0
ENDBLK
  5
1D
330
1B
100
AcDbEntity
 67
     1
  8
0
100
AcDbBlockEnd
  0
BLOCK
  5
24
330
23
100
AcDbEntity
  8
0
100
AcDbBlockBegin
  2
*Paper_Space0
 70
     0
 10
0.0
 20
0.0
 30
0.0
  3
*Paper_Space0
  1

  0
ENDBLK
  5
25
330
23
100
AcDbEntity
  8
0
100
AcDbBlockEnd
  0
BLOCK
  5
A3
330
A2
100
AcDbEntity
  8
0
100
AcDbBlockBegin
  2
SW_CENTERMARKSYMBOL_0
 70
     0
 10
0.0
 20
0.0
 30
0.0
  3
SW_CENTERMARKSYMBOL_0
  1

  0
LINE
  5
A5
330
A2
100
AcDbEntity
  8
FORMAT
 62
     0
100
AcDbLine
 10
0.0
 20
0.0
 30
0.0
 11
0.0
 21
2.5
 31
0.0
  0
LINE
  5
A6
330
A2
100
AcDbEntity
  8
FORMAT
 62
     0
100
AcDbLine
 10
0.0
 20
0.0
 30
0.0
 11
-2.5
 21
0.0
 31
0.0
  0
LINE
  5
A7
330
A2
100
AcDbEntity
  8
FORMAT
 62
     0
100
AcDbLine
 10
0.0
 20
0.0
 30
0.0
 11
0.0
 21
-2.5
 31
0.0
  0
LINE
  5
A8
330
A2
100
AcDbEntity
  8
FORMAT
 62
     0
100
AcDbLine
 10
0.0
 20
0.0
 30
0.0
 11
2.5
 21
0.0
 31
0.0
  0
LINE
  5
A9
330
A2
100
AcDbEntity
  8
FORMAT
 62
     0
100
AcDbLine
 10
0.0
 20
5.0
 30
0.0
 11
0.0
 21
57.5
 31
0.0
  0
LINE
  5
AA
330
A2
100
AcDbEntity
  8
FORMAT
 62
     0
100
AcDbLine
 10
-5.0
 20
0.0
 30
0.0
 11
-57.5
 21
0.0
 31
0.0
  0
LINE
  5
AB
330
A2
100
AcDbEntity
  8
FORMAT
 62
     0
100
AcDbLine
 10
0.0
 20
-5.0
 30
0.0
 11
0.0
 21
-57.5
 31
0.0
  0
LINE
  5
AC
330
A2
100
AcDbEntity
  8
FORMAT
 62
     0
100
AcDbLine
 10
5.0
 20
0.0
 30
0.0
 11
57.5
 21
0.0
 31
0.0
  0
ENDBLK
  5
A4
330
A2
100
AcDbEntity
  8
0
100
AcDbBlockEnd
  0
ENDSEC
  0
SECTION
  2
ENTITIES
  0
LINE
  5
83
330
1F
100
AcDbEntity
  8
0
  6
Continuous
 62
     7
370
    25
100
AcDbLine
 10
146.8057672052
 20
251.176067956
 30
0.0
 11
74.3255106526
 21
125.6365810612
 31
0.0
  0
LINE
  5
84
330
1F
100
AcDbEntity
  8
0
  6
Continuous
 62
     7
370
    25
100
AcDbLine
 10
184.3255106526
 20
96.1621698938
 30
0.0
 11
242.0685616215
 21
196.176067956
 31
0.0
  0
LINE
  5
85
330
1F
100
AcDbEntity
  8
0
  6
Continuous
 62
     7
370
    25
100
AcDbLine
 10
74.3255106526
 20
125.6365810612
 30
0.0
 11
74.3255106526
 21
-19.323932044
 31
0.0
  0
LINE
  5
86
330
1F
100
AcDbEntity
  8
0
  6
Continuous
 62
     7
370
    25
100
AcDbLine
 10
184.3255106526
 20
-19.323932044
 30
0.0
 11
184.3255106526
 21
96.1621698938
 31
0.0
  0
LINE
  5
87
330
1F
100
AcDbEntity
  8
0
  6
Continuous
 62
     7
370
    25
100
AcDbLine
 10
194.4371644133
 20
223.676067956
 30
0.0
 11
242.0685616215
 21
196.176067956
 31
0.0
  0
LINE
  5
88
330
1F
100
AcDbEntity
  8
0
  6
Continuous
 62
     7
370
    25
100
AcDbLine
 10
146.8057672052
 20
251.176067956
 30
0.0
 11
194.4371644133
 21
223.676067956
 31
0.0
  0
LINE
  5
89
330
1F
100
AcDbEntity
  8
0
  6
Continuous
 62
     7
370
    25
100
AcDbLine
 10
184.3255106526
 20
96.1621698938
 30
0.0
 11
74.3255106526
 21
125.6365810612
 31
0.0
  0
LINE
  5
8A
330
1F
100
AcDbEntity
  8
0
  6
Continuous
 62
     7
370
    25
100
AcDbLine
 10
129.3255106526
 20
-19.323932044
 30
0.0
 11
184.3255106526
 21
-19.323932044
 31
0.0
  0
LINE
  5
8B
330
1F
100
AcDbEntity
  8
0
  6
Continuous
 62
     7
370
    25
100
AcDbLine
 10
74.3255106526
 20
-19.323932044
 30
0.0
 11
129.3255106526
 21
-19.323932044
 31
0.0
  0
LINE
  5
8C
330
1F
100
AcDbEntity
  8
0
  6
Continuous
 62
     7
370
    25
100
AcDbLine
 10
-140.1709056624
 20
223.676067956
 30
0.0
 11
-140.1709056624
 21
110.8993754775
 31
0.0
  0
LINE
  5
8D
330
1F
100
AcDbEntity
  8
0
  6
Continuous
 62
     7
370
    25
100
AcDbLine
 10
-30.1709056624
 20
110.8993754775
 30
0.0
 11
-30.1709056624
 21
223.676067956
 31
0.0
  0
LINE
  5
8E
330
1F
100
AcDbEntity
  8
0
  6
Continuous
 62
     7
370
    25
100
AcDbLine
 10
-140.1709056624
 20
110.8993754775
 30
0.0
 11
-140.1709056624
 21
-19.323932044
 31
0.0
  0
LINE
  5
8F
330
1F
100
AcDbEntity
  8
0
  6
Continuous
 62
     7
370
    25
100
AcDbLine
 10
-30.1709056624
 20
-19.323932044
 30
0.0
 11
-30.1709056624
 21
110.8993754775
 31
0.0
  0
LWPOLYLINE
  5
90
330
1F
100
AcDbEntity
  8
0
  6
Continuous
 62
     7
370
    25
100
AcDbPolyline
 90
       98
 70
   128
 43
0.0
 10
-140.1709056624
 20
223.676067956
 10
-140.0555611055
 20
221.8959979507
 10
-139.7100112298
 20
220.1233941776
 10
-139.1357053918
 20
218.365691553
 10
-138.3350524296
 20
216.6302624925
 10
-137.31141056
 20
214.9243859887
 10
-136.0690732927
 20
213.2552170805
 10
-134.6132514221
 20
211.6297568424
 10
-132.9500511709
 20
210.0548230195
 10
-131.086448579
 20
208.5370214316
 10
-129.0302602433
 20
207.0827182659
 10
-126.7901105324
 20
205.6980133755
 10
-124.3753954125
 20
204.3887146938
 10
-121.796243038
 20
203.1603138745
 10
-119.0634712704
 20
202.0179632576
 10
-116.1885423042
 20
200.9664542585
 10
-113.1835145905
 20
200.0101972714
 10
-110.0609922598
 20
199.1532031704
 10
-106.8340722561
 20
198.3990664866
 10
-103.5162894032
 20
197.7509503313
 10
-100.1215596354
 20
197.211573129
 10
-96.6641216291
 20
196.7831972151
 10
-93.1584770809
 20
196.467619347
 10
-89.6193298823
 20
196.2661631679
 10
-86.0615244465
 20
196.1796736552
 10
-82.4999834461
 20
196.2085135758
 10
-78.9496452216
 20
196.3525619651
 10
-75.4254011255
 20
196.6112146342
 10
-71.9420330622
 20
196.9833867038
 10
-68.514151488
 20
197.4675171549
 10
-65.1561341294
 20
198.0615753762
 10
-61.8820656782
 20
198.763069681
 10
-58.7056787154
 20
199.5690577585
 10
-55.6402961117
 20
200.4761590145
 10
-52.6987751471
 20
201.4805687512
 10
-49.8934535827
 20
202.578074125
 10
-47.2360979121
 20
203.764071817
 10
-44.7378540085
 20
205.0335873408
 10
-42.409200375
 20
206.3812959069
 10
-40.2599041942
 20
207.8015447574
 10
-38.2989803613
 20
209.288376875
 10
-36.5346536722
 20
210.835555969
 10
-34.9743243263
 20
212.4365926327
 10
-33.624536887
 20
214.0847715619
 10
-32.490952832
 20
215.7731797214
 10
-31.5783268068
 20
217.4947353406
 10
-30.890486682
 20
219.2422176169
 10
-30.4303174982
 20
221.0082970025
 10
-30.1997493649
 20
222.7855659465
 10
-30.1997493649
 20
224.5665699654
 10
-30.4303174982
 20
226.3438389095
 10
-30.890486682
 20
228.109918295
 10
-31.5783268068
 20
229.8574005714
 10
-32.490952832
 20
231.5789561906
 10
-33.624536887
 20
233.26736435
 10
-34.9743243263
 20
234.9155432792
 10
-36.5346536722
 20
236.516579943
 10
-38.2989803613
 20
238.063759037
 10
-40.2599041942
 20
239.5505911545
 10
-42.409200375
 20
240.970840005
 10
-44.7378540085
 20
242.3185485712
 10
-47.2360979121
 20
243.5880640949
 10
-49.8934535827
 20
244.7740617869
 10
-52.6987751471
 20
245.8715671607
 10
-55.6402961117
 20
246.8759768974
 10
-58.7056787154
 20
247.7830781534
 10
-61.8820656782
 20
248.5890662309
 10
-65.1561341294
 20
249.2905605358
 10
-68.514151488
 20
249.8846187571
 10
-71.9420330622
 20
250.3687492082
 10
-75.4254011255
 20
250.7409212778
 10
-78.9496452216
 20
250.9995739468
 10
-82.4999834461
 20
251.1436223362
 10
-86.0615244465
 20
251.1724622568
 10
-89.6193298823
 20
251.085972744
 10
-93.1584770809
 20
250.884516565
 10
-96.6641216291
 20
250.5689386969
 10
-100.1215596354
 20
250.1405627829
 10
-103.5162894032
 20
249.6011855806
 10
-106.8340722561
 20
248.9530694254
 10
-110.0609922598
 20
248.1989327416
 10
-113.1835145905
 20
247.3419386406
 10
-116.1885423042
 20
246.3856816535
 10
-119.0634712704
 20
245.3341726544
 10
-121.796243038
 20
244.1918220374
 10
-124.3753954125
 20
242.9634212181
 10
-126.7901105324
 20
241.6541225364
 10
-129.0302602433
 20
240.269417646
 10
-131.086448579
 20
238.8151144804
 10
-132.9500511709
 20
237.2973128925
 10
-134.6132514221
 20
235.7223790695
 10
-136.0690732927
 20
234.0969188314
 10
-137.31141056
 20
232.4277499232
 10
-138.3350524296
 20
230.7218734194
 10
-139.1357053918
 20
228.986444359
 10
-139.7100112298
 20
227.2287417343
 10
-140.0555611055
 20
225.4561379613
 10
-140.1709056624
 20
223.676067956
  0
ELLIPSE
  5
91
330
1F
100
AcDbEntity
  8
0
  6
Continuous
 62
     7
370
    25
100
AcDbEllipse
 10
-85.1709056624
 20
110.8993754775
 30
0.0
 11
54.99999999999999
 21
0.0
 31
0.0
210
0.0
220
0.0
230
1.0
 40
0.2679491924
 41
3.141592653589849
 42
6.283185307179586
  0
LWPOLYLINE
  5
92
330
1F
100
AcDbEntity
  8
0
  6
Continuous
 62
     7
370
    25
100
AcDbPolyline
 90
       88
 70
   128
 43
0.0
 10
-130.1709056624
 20
223.676067956
 10
-130.0536010807
 20
225.2996174615
 10
-129.7022989074
 20
226.9147025316
 10
-129.1188306693
 20
228.5129028607
 10
-128.3062382998
 20
230.0858861722
 10
-127.268758279
 20
231.6254516596
 10
-126.0117995476
 20
233.1235727411
 10
-124.5419153062
 20
234.5724389072
 10
-122.8667688507
 20
235.9644964406
 10
-120.9950936191
 20
237.2924877978
 10
-118.9366476594
 20
238.5494894469
 10
-116.7021627557
 20
239.7289479633
 10
-114.3032884776
 20
240.8247141963
 10
-111.7525314448
 20
241.8310753284
 10
-109.0631901234
 20
242.7427846583
 10
-106.2492854939
 20
243.555088956
 10
-103.3254879519
 20
244.2637532429
 10
-100.3070408241
 20
244.8650828715
 10
-97.2096808962
 20
245.3559427877
 10
-94.0495563686
 20
245.733773875
 10
-90.8431426673
 20
245.9966062972
 10
-87.6071565487
 20
246.1430697676
 10
-84.3584689461
 20
246.1724006937
 10
-81.1140170123
 20
246.0844461574
 10
-77.8907158175
 20
245.8796647132
 10
-74.7053701615
 20
245.5591239964
 10
-71.5745869617
 20
245.1244951582
 10
-68.5146886721
 20
244.5780441519
 10
-65.5416281854
 20
243.92261992
 10
-62.6709056624
 20
243.1616395411
 10
-59.9174877211
 20
242.2990704145
 10
-57.2957294077
 20
241.3394095762
 10
-54.8192993561
 20
240.2876602534
 10
-52.5011085258
 20
239.1493057802
 10
-50.3532428906
 20
237.9302810096
 10
-48.3869004272
 20
236.6369413723
 10
-46.6123327348
 20
235.2760297425
 10
-45.0387915877
 20
233.854641283
 10
-43.6744807007
 20
232.3801864553
 10
-42.5265129592
 20
230.860352384
 10
-41.6008733353
 20
229.3030627803
 10
-40.9023876854
 20
227.7164366312
 10
-40.4346975904
 20
226.1087458705
 10
-40.2002413698
 20
224.4883722536
 10
-40.2002413698
 20
222.8637636583
 10
-40.4346975904
 20
221.2433900414
 10
-40.9023876854
 20
219.6356992808
 10
-41.6008733353
 20
218.0490731316
 10
-42.5265129592
 20
216.4917835279
 10
-43.6744807007
 20
214.9719494567
 10
-45.0387915877
 20
213.4974946289
 10
-46.6123327348
 20
212.0761061695
 10
-48.3869004272
 20
210.7151945396
 10
-50.3532428906
 20
209.4218549024
 10
-52.5011085258
 20
208.2028301318
 10
-54.8192993561
 20
207.0644756585
 10
-57.2957294077
 20
206.0127263358
 10
-59.9174877211
 20
205.0530654974
 10
-62.6709056624
 20
204.1904963708
 10
-65.5416281854
 20
203.4295159919
 10
-68.5146886721
 20
202.7740917601
 10
-71.5745869617
 20
202.2276407538
 10
-74.7053701615
 20
201.7930119155
 10
-77.8907158175
 20
201.4724711988
 10
-81.1140170123
 20
201.2676897545
 10
-84.3584689461
 20
201.1797352183
 10
-87.6071565487
 20
201.2090661443
 10
-90.8431426673
 20
201.3555296148
 10
-94.0495563686
 20
201.618362037
 10
-97.2096808962
 20
201.9961931243
 10
-100.3070408241
 20
202.4870530404
 10
-103.3254879519
 20
203.0883826691
 10
-106.2492854939
 20
203.7970469559
 10
-109.0631901234
 20
204.6093512536
 10
-111.7525314448
 20
205.5210605836
 10
-114.3032884776
 20
206.5274217156
 10
-116.7021627557
 20
207.6231879487
 10
-118.9366476594
 20
208.802646465
 10
-120.9950936191
 20
210.0596481141
 10
-122.8667688507
 20
211.3876394714
 10
-124.5419153062
 20
212.7796970048
 10
-126.0117995476
 20
214.2285631709
 10
-127.268758279
 20
215.7266842524
 10
-128.3062382998
 20
217.2662497397
 10
-129.1188306693
 20
218.8392330512
 10
-129.7022989074
 20
220.4374333803
 10
-130.0536010807
 20
222.0525184505
 10
-130.1709056624
 20
223.676067956
  0
LINE
  5
93
330
1F
100
AcDbEntity
  8
0
  6
Continuous
 62
     7
370
    25
100
AcDbLine
 10
-140.1709056624
 20
-19.323932044
 30
0.0
 11
-30.1709056624
 21
-19.323932044
 31
0.0
  0
LINE
  5
94
330
1F
100
AcDbEntity
  8
0
  6
Continuous
 62
     7
370
    25
100
AcDbLine
 10
322.1372355289
 20
223.676067956
 30
0.0
 11
322.1372355289
 21
110.8993754775
 31
0.0
  0
LINE
  5
95
330
1F
100
AcDbEntity
  8
0
  6
Continuous
 62
     7
370
    25
100
AcDbLine
 10
432.1372355289
 20
110.8993754775
 30
0.0
 11
432.1372355289
 21
223.676067956
 31
0.0
  0
LINE
  5
96
330
1F
100
AcDbEntity
  8
0
  6
Continuous
 62
     7
370
    25
100
AcDbLine
 10
322.1372355289
 20
110.8993754775
 30
0.0
 11
322.1372355289
 21
-19.323932044
 31
0.0
  0
LINE
  5
97
330
1F
100
AcDbEntity
  8
0
  6
Continuous
 62
     7
370
    25
100
AcDbLine
 10
432.1372355289
 20
-19.323932044
 30
0.0
 11
432.1372355289
 21
110.8993754775
 31
0.0
  0
LWPOLYLINE
  5
98
330
1F
100
AcDbEntity
  8
0
  6
Continuous
 62
     7
370
    25
100
AcDbPolyline
 90
       50
 70
   128
 43
0.0
 10
322.1372355289
 20
223.676067956
 10
322.1660792314
 20
224.5665699654
 10
322.3966473648
 20
226.3438389095
 10
322.8568165486
 20
228.109918295
 10
323.5446566733
 20
229.8574005714
 10
324.4572826986
 20
231.5789561906
 10
325.5908667536
 20
233.26736435
 10
326.9406541928
 20
234.9155432792
 10
328.5009835388
 20
236.516579943
 10
330.2653102278
 20
238.063759037
 10
332.2262340608
 20
239.5505911545
 10
334.3755302415
 20
240.970840005
 10
336.704183875
 20
242.3185485712
 10
339.2024277786
 20
243.5880640949
 10
341.8597834492
 20
244.7740617869
 10
344.6651050136
 20
245.8715671607
 10
347.6066259782
 20
246.8759768974
 10
350.6720085819
 20
247.7830781534
 10
353.8483955448
 20
248.5890662309
 10
357.1224639959
 20
249.2905605358
 10
360.4804813545
 20
249.8846187571
 10
363.9083629288
 20
250.3687492082
 10
367.3917309921
 20
250.7409212778
 10
370.9159750882
 20
250.9995739468
 10
374.4663133126
 20
251.1436223362
 10
378.0278543131
 20
251.1724622568
 10
381.5856597488
 20
251.085972744
 10
385.1248069474
 20
250.884516565
 10
388.6304514956
 20
250.5689386969
 10
392.0878895019
 20
250.1405627829
 10
395.4826192697
 20
249.6011855806
 10
398.8004021226
 20
248.9530694254
 10
402.0273221264
 20
248.1989327416
 10
405.149844457
 20
247.3419386406
 10
408.1548721707
 20
246.3856816535
 10
411.029801137
 20
245.3341726544
 10
413.7625729046
 20
244.1918220374
 10
416.341725279
 20
242.9634212181
 10
418.7564403989
 20
241.6541225364
 10
420.9965901099
 20
240.269417646
 10
423.0527784455
 20
238.8151144804
 10
424.9163810374
 20
237.2973128925
 10
426.5795812886
 20
235.7223790695
 10
428.0354031593
 20
234.0969188314
 10
429.2777404265
 20
232.4277499232
 10
430.3013822961
 20
230.7218734194
 10
431.1020352583
 20
228.986444359
 10
431.6763410964
 20
227.2287417343
 10
432.021890972
 20
225.4561379613
 10
432.1372355289
 20
223.676067956
  0
ELLIPSE
  5
99
330
1F
100
AcDbEntity
  8
0
  6
Continuous
 62
     7
370
    25
100
AcDbEllipse
 10
377.1372355289
 20
110.8993754775
 30
0.0
 11
55.0
 21
0.0
 31
0.0
210
0.0
220
0.0
230
1.0
 40
0.2679491924
 41
1.570796326794897
 42
3.141592653589849
  0
ELLIPSE
  5
9A
330
1F
100
AcDbEntity
  8
0
  6
Continuous
 62
     7
370
    25
100
AcDbEllipse
 10
377.1372355289
 20
110.8993754775
 30
0.0
 11
55.0
 21
0.0
 31
0.0
210
0.0
220
0.0
230
1.0
 40
0.2679491924
 41
0.0
 42
1.570796326794899
  0
LINE
  5
9B
330
1F
100
AcDbEntity
  8
0
  6
Continuous
 62
     7
370
    25
100
AcDbLine
 10
322.1372355289
 20
-19.323932044
 30
0.0
 11
432.1372355289
 21
-19.323932044
 31
0.0
  0
LINE
  5
9C
330
1F
100
AcDbEntity
  8
0
  6
Continuous
 62
     7
370
    25
100
AcDbLine
 10
194.4371644133
 20
427.8416503187
 30
0.0
 11
129.3255106526
 21
427.8416503187
 31
0.0
  0
LINE
  5
9D
330
1F
100
AcDbEntity
  8
0
  6
Continuous
 62
     7
370
    25
100
AcDbLine
 10
129.3255106526
 20
317.8416503187
 30
0.0
 11
194.4371644133
 21
317.8416503187
 31
0.0
  0
CIRCLE
  5
9E
330
1F
100
AcDbEntity
  8
0
  6
Continuous
 62
     7
370
    25
100
AcDbCircle
 10
129.3255106526
 20
372.8416503187
 30
0.0
 40
55.0
  0
CIRCLE
  5
9F
330
1F
100
AcDbEntity
  8
0
  6
Continuous
 62
     7
370
    25
100
AcDbCircle
 10
129.3255106526
 20
372.8416503187
 30
0.0
 40
45.0
  0
LWPOLYLINE
  5
A0
330
1F
100
AcDbEntity
  8
0
  6
Continuous
 62
     7
370
    25
100
AcDbPolyline
 90
       50
 70
   128
 43
0.0
 10
194.4371644133
 20
427.8416503187
 10
197.5203361035
 20
427.7263057617
 10
200.5905759002
 20
427.3807558861
 10
203.6350061506
 20
426.8064500481
 10
206.6408574563
 20
426.0057970858
 10
209.5955222323
 20
424.9821552162
 10
212.4866075877
 20
423.739817949
 10
215.3019873058
 20
422.2839960783
 10
218.0298527057
 20
420.6207958271
 10
220.6587621718
 20
418.7571932353
 10
223.1776891442
 20
416.7010048996
 10
225.5760683679
 20
414.4608551886
 10
227.8438402069
 20
412.0461400687
 10
229.971492838
 20
409.4669876943
 10
231.9501021466
 20
406.7342159267
 10
233.7713691577
 20
403.8592869605
 10
235.4276548444
 20
400.8542592467
 10
236.9120121691
 20
397.7317369161
 10
238.2182152213
 20
394.5048169124
 10
239.3407853314
 20
391.1870340594
 10
240.2750140502
 20
387.7923042916
 10
241.0169828979
 20
384.3348662854
 10
241.5635797993
 20
380.8292217372
 10
241.9125121369
 20
377.2900745385
 10
242.0623163673
 20
373.7322691028
 10
242.0123641595
 20
370.1707281024
 10
241.7628650304
 20
366.6203898779
 10
241.3148654661
 20
363.0961457818
 10
240.6702445324
 20
359.6127777185
 10
239.8317059936
 20
356.1848961443
 10
238.8027669716
 20
352.8268787857
 10
237.5877431944
 20
349.5528103345
 10
236.1917308939
 20
346.3764233717
 10
234.6205854309
 20
343.311040768
 10
232.8808967354
 20
340.3695198033
 10
230.9799616663
 20
337.5641982389
 10
228.9257534061
 20
334.9068425684
 10
226.726888018
 20
332.4085986648
 10
224.3925883076
 20
330.0799450313
 10
221.9326451392
 20
327.9306488505
 10
219.3573763692
 20
325.9697250176
 10
216.67758357
 20
324.2053983285
 10
213.9045067237
 20
322.6450689826
 10
211.0497770783
 20
321.2952815433
 10
208.1253683622
 20
320.1616974883
 10
205.1435465617
 20
319.2490714631
 10
202.1168184737
 20
318.5612313383
 10
199.0578792478
 20
318.1010621545
 10
195.979559138
 20
317.8704940211
 10
194.4371644133
 20
317.8416503187
  0
ARC
  5
A1
330
1F
100
AcDbEntity
  8
0
  6
Continuous
 62
     7
370
    25
100
AcDbCircle
 10
205.6884864942
 20
372.8416503187
 30
0.0
 40
50.27128710492969
100
AcDbArc
 50
145.5802918654
 51
214.4197081346
  0
INSERT
  5
AD
330
1F
100
AcDbEntity
  8
FORMAT
 62
     7
100
AcDbBlockReference
  2
SW_CENTERMARKSYMBOL_0
 10
129.3255106526
 20
372.8416503187
 30
0.0
  0
LINE
  5
AE
330
1F
100
AcDbEntity
  8
0
  6
Continuous
 62
     7
370
    25
100
AcDbLine
 10
194.4371644133
 20
-149.8827631124
 30
0.0
 11
129.3255106526
 21
-149.8827631124
 31
0.0
  0
LINE
  5
AF
330
1F
100
AcDbEntity
  8
0
  6
Continuous
 62
     7
370
    25
100
AcDbLine
 10
129.3255106526
 20
-259.8827631124
 30
0.0
 11
194.4371644133
 21
-259.8827631124
 31
0.0
  0
LWPOLYLINE
  5
B0
330
1F
100
AcDbEntity
  8
0
  6
Continuous
 62
     7
370
    25
100
AcDbPolyline
 90
       98
 70
   128
 43
0.0
 10
194.4371644133
 20
-259.8827631124
 10
197.5203361035
 20
-259.7674185555
 10
200.5905759002
 20
-259.4218686798
 10
203.6350061506
 20
-258.8475628418
 10
206.6408574563
 20
-258.0469098796
 10
209.5955222323
 20
-257.02326801
 10
212.4866075877
 20
-255.7809307427
 10
215.3019873058
 20
-254.3251088721
 10
218.0298527057
 20
-252.6619086209
 10
220.6587621718
 20
-250.798306029
 10
223.1776891442
 20
-248.7421176933
 10
225.5760683679
 20
-246.5019679824
 10
227.8438402069
 20
-244.0872528625
 10
229.971492838
 20
-241.508100488
 10
231.9501021466
 20
-238.7753287204
 10
233.7713691577
 20
-235.9003997542
 10
235.4276548444
 20
-232.8953720405
 10
236.9120121691
 20
-229.7728497098
 10
238.2182152213
 20
-226.5459297061
 10
239.3407853314
 20
-223.2281468532
 10
240.2750140502
 20
-219.8334170854
 10
241.0169828979
 20
-216.3759790791
 10
241.5635797993
 20
-212.8703345309
 10
241.9125121369
 20
-209.3311873323
 10
242.0623163673
 20
-205.7733818965
 10
242.0123641595
 20
-202.2118408961
 10
241.7628650304
 20
-198.6615026717
 10
241.3148654661
 20
-195.1372585755
 10
240.6702445324
 20
-191.6538905122
 10
239.8317059936
 20
-188.226008938
 10
238.8027669716
 20
-184.8679915794
 10
237.5877431944
 20
-181.5939231282
 10
236.1917308939
 20
-178.4175361654
 10
234.6205854309
 20
-175.3521535617
 10
232.8808967354
 20
-172.4106325971
 10
230.9799616663
 20
-169.6053110327
 10
228.9257534061
 20
-166.9479553621
 10
226.726888018
 20
-164.4497114585
 10
224.3925883076
 20
-162.121057825
 10
221.9326451392
 20
-159.9717616442
 10
219.3573763692
 20
-158.0108378113
 10
216.67758357
 20
-156.2465111222
 10
213.9045067237
 20
-154.6861817763
 10
211.0497770783
 20
-153.336394337
 10
208.1253683622
 20
-152.2028102821
 10
205.1435465617
 20
-151.2901842568
 10
202.1168184737
 20
-150.602344132
 10
199.0578792478
 20
-150.1421749482
 10
195.979559138
 20
-149.9116068149
 10
192.8947696887
 20
-149.9116068149
 10
189.8164495789
 20
-150.1421749482
 10
186.757510353
 20
-150.602344132
 10
183.730782265
 20
-151.2901842568
 10
180.7489604645
 20
-152.2028102821
 10
177.8245517484
 20
-153.336394337
 10
174.969822103
 20
-154.6861817763
 10
172.1967452567
 20
-156.2465111222
 10
169.5169524574
 20
-158.0108378113
 10
166.9416836875
 20
-159.9717616442
 10
164.481740519
 20
-162.121057825
 10
162.1474408087
 20
-164.4497114585
 10
159.9485754206
 20
-166.9479553621
 10
157.8943671604
 20
-169.6053110327
 10
155.9934320913
 20
-172.4106325971
 10
154.2537433958
 20
-175.3521535617
 10
152.6825979327
 20
-178.4175361654
 10
151.2865856322
 20
-181.5939231282
 10
150.071561855
 20
-184.8679915794
 10
149.0426228331
 20
-188.226008938
 10
148.2040842943
 20
-191.6538905122
 10
147.5594633606
 20
-195.1372585755
 10
147.1114637963
 20
-198.6615026717
 10
146.8619646672
 20
-202.2118408961
 10
146.8120124594
 20
-205.7733818965
 10
146.9618166898
 20
-209.3311873323
 10
147.3107490274
 20
-212.8703345309
 10
147.8573459288
 20
-216.3759790791
 10
148.5993147764
 20
-219.8334170854
 10
149.5335434953
 20
-223.2281468532
 10
150.6561136054
 20
-226.5459297061
 10
151.9623166575
 20
-229.7728497098
 10
153.4466739822
 20
-232.8953720405
 10
155.102959669
 20
-235.9003997542
 10
156.9242266801
 20
-238.7753287204
 10
158.9028359887
 20
-241.508100488
 10
161.0304886198
 20
-244.0872528625
 10
163.2982604587
 20
-246.5019679824
 10
165.6966396824
 20
-248.7421176933
 10
168.2155666549
 20
-250.798306029
 10
170.844476121
 20
-252.6619086209
 10
173.5723415209
 20
-254.3251088721
 10
176.387721239
 20
-255.7809307427
 10
179.2788065944
 20
-257.02326801
 10
182.2334713704
 20
-258.0469098796
 10
185.2393226761
 20
-258.8475628418
 10
188.2837529265
 20
-259.4218686798
 10
191.3539927231
 20
-259.7674185555
 10
194.4371644133
 20
-259.8827631124
  0
ARC
  5
B1
330
1F
100
AcDbEntity
  8
0
  6
Continuous
 62
     7
370
    25
100
AcDbCircle
 10
129.3255106526
 20
-204.8827631124
 30
0.0
 40
55.0
100
AcDbArc
 50
90.0
 51
180.0
  0
ARC
  5
B2
330
1F
100
AcDbEntity
  8
0
  6
Continuous
 62
     7
370
    25
100
AcDbCircle
 10
129.3255106526
 20
-204.8827631124
 30
0.0
 40
54.99999999999999
100
AcDbArc
 50
180.0
 51
270.0
  0
LWPOLYLINE
  5
B3
330
1F
100
AcDbEntity
  8
0
  6
Continuous
 62
     7
370
    25
100
AcDbPolyline
 90
       88
 70
   128
 43
0.0
 10
194.4371644133
 20
-249.8827631124
 10
191.6250941812
 20
-249.7654585307
 10
188.8276847811
 20
-249.4141563574
 10
186.0595206105
 20
-248.8306881193
 10
183.3350335955
 20
-248.0180957498
 10
180.6684279499
 20
-246.980615729
 10
178.0736061208
 20
-245.7236569976
 10
175.5640963077
 20
-244.2537727562
 10
173.1529819328
 20
-242.5786263007
 10
170.85283343
 20
-240.7069510691
 10
168.6756427086
 20
-238.6485051094
 10
166.6327606329
 20
-236.4140202057
 10
164.734837844
 20
-234.0151459276
 10
162.9917692326
 20
-231.4643888948
 10
161.4126423513
 20
-228.7750475734
 10
160.0056900365
 20
-225.9611429439
 10
158.7782474862
 20
-223.0373454019
 10
157.7367140173
 20
-220.0188982741
 10
156.8865197031
 20
-216.9215383462
 10
156.2320970632
 20
-213.7614138186
 10
155.7768579541
 20
-210.5550001173
 10
155.5231757818
 20
-207.3190139987
 10
155.4723731277
 20
-204.0703263961
 10
155.6247148532
 20
-200.8258744623
 10
155.9794067191
 20
-197.6025732675
 10
156.5345995264
 20
-194.4172276115
 10
157.2873987567
 20
-191.2864444118
 10
158.2338796635
 20
-188.2265461221
 10
159.3691077335
 20
-185.2534856354
 10
160.6871644133
 20
-182.3827631124
 10
162.1811779657
 20
-179.6293451711
 10
163.8433592957
 20
-177.0075868577
 10
165.6650425595
 20
-174.5311568061
 10
167.6367303442
 20
-172.2129659758
 10
169.7481431826
 20
-170.0651003406
 10
171.9882731457
 20
-168.0987578772
 10
174.3454412333
 20
-166.3241901848
 10
176.8073582623
 20
-164.7506490377
 10
179.3611889374
 20
-163.3863381507
 10
181.9936187679
 20
-162.2383704092
 10
184.6909234836
 20
-161.3127307853
 10
187.4390405866
 20
-160.6142451355
 10
190.2236426669
 20
-160.1465550404
 10
193.0302120986
 20
-159.9120988199
 10
195.8441167281
 20
-159.9120988199
 10
198.6506861598
 20
-160.1465550404
 10
201.43528824
 20
-160.6142451355
 10
204.1834053431
 20
-161.3127307853
 10
206.8807100588
 20
-162.2383704092
 10
209.5131398893
 20
-163.3863381507
 10
212.0669705643
 20
-164.7506490377
 10
214.5288875934
 20
-166.3241901848
 10
216.886055681
 20
-168.0987578772
 10
219.1261856441
 20
-170.0651003406
 10
221.2375984825
 20
-172.2129659759
 10
223.2092862671
 20
-174.5311568061
 10
225.030969531
 20
-177.0075868577
 10
226.693150861
 20
-179.6293451711
 10
228.1871644133
 20
-182.3827631124
 10
229.5052210931
 20
-185.2534856354
 10
230.6404491632
 20
-188.2265461221
 10
231.58693007
 20
-191.2864444118
 10
232.3397293003
 20
-194.4172276115
 10
232.8949221076
 20
-197.6025732675
 10
233.2496139735
 20
-200.8258744623
 10
233.401955699
 20
-204.0703263961
 10
233.3511530449
 20
-207.3190139987
 10
233.0974708725
 20
-210.5550001173
 10
232.6422317635
 20
-213.7614138186
 10
231.9878091235
 20
-216.9215383462
 10
231.1376148094
 20
-220.0188982741
 10
230.0960813405
 20
-223.0373454019
 10
228.8686387901
 20
-225.9611429439
 10
227.4616864753
 20
-228.7750475734
 10
225.8825595941
 20
-231.4643888948
 10
224.1394909827
 20
-234.0151459276
 10
222.2415681938
 20
-236.4140202057
 10
220.198686118
 20
-238.6485051094
 10
218.0214953966
 20
-240.7069510691
 10
215.7213468939
 20
-242.5786263007
 10
213.310232519
 20
-244.2537727562
 10
210.8007227059
 20
-245.7236569976
 10
208.2059008768
 20
-246.980615729
 10
205.5392952312
 20
-248.0180957498
 10
202.8148082162
 20
-248.8306881193
 10
200.0466440455
 20
-249.4141563574
 10
197.2492346455
 20
-249.7654585307
 10
194.4371644133
 20
-249.8827631124
  0
ARC
  5
B4
330
1F
100
AcDbEntity
  8
0
  6
Continuous
 62
     7
370
    25
100
AcDbCircle
 10
129.3255106526
 20
-204.8827631124
 30
0.0
 40
45.00000000000001
100
AcDbArc
 50
320.8417759654
 51
39.1582240346
  0
LINE
  5
B5
330
1F
100
AcDbEntity
  8
0
  6
Continuous
 62
     7
370
    25
100
AcDbLine
 10
292.5977839917
 20
-208.2767713856
 30
0.0
 11
292.5977839917
 21
-323.1184071675
 31
0.0
  0
LINE
  5
B6
330
1F
100
AcDbEntity
  8
0
  6
Continuous
 62
     7
370
    25
100
AcDbLine
 10
402.5977839917
 20
-323.1184071675
 30
0.0
 11
402.5977839917
 21
-225.2947524493
 31
0.0
  0
LINE
  5
B7
330
1F
100
AcDbEntity
  8
0
  6
Continuous
 62
     7
370
    25
100
AcDbLine
 10
342.3628387651
 20
-78.2257141762
 30
0.0
 11
293.2441003979
 21
-204.8241566883
 31
0.0
  0
LINE
  5
B8
330
1F
100
AcDbEntity
  8
0
  6
Continuous
 62
     7
370
    25
100
AcDbLine
 10
402.5977839917
 20
-227.0815537907
 30
0.0
 11
444.9145130353
 21
-118.0145832779
 31
0.0
  0
LWPOLYLINE
  5
B9
330
1F
100
AcDbEntity
  8
0
  6
Continuous
 62
     7
370
    25
100
AcDbPolyline
 90
       98
 70
   128
 43
0.0
 10
308.7069110264
 20
-300.6671840924
 10
311.3058710883
 20
-299.2610046165
 10
314.0570520452
 20
-297.9548913778
 10
316.9489144881
 20
-296.7543226693
 10
319.9693289409
 20
-295.6643340934
 10
323.1056267358
 20
-294.6894974409
 10
326.3446531498
 20
-293.8339015156
 10
329.6728225806
 20
-293.101134984
 10
333.0761755289
 20
-292.4942713237
 10
336.5404371497
 20
-292.0158559318
 10
340.0510771259
 20
-291.6678954487
 10
343.5933706133
 20
-291.4518493415
 10
347.1524600021
 20
-291.3686237828
 10
350.7134172344
 20
-291.4185678494
 10
354.2613064182
 20
-291.6014720586
 10
357.7812464731
 20
-291.9165692466
 10
361.2584735475
 20
-292.3625377862
 10
364.6784029423
 20
-292.9375071304
 10
368.0266902854
 20
-293.639065658
 10
371.289291696
 20
-294.4642707886
 10
374.4525226898
 20
-295.4096613252
 10
377.5031155769
 20
-296.4712719714
 10
380.4282751104
 20
-297.6446499631
 10
383.2157321548
 20
-298.9248737453
 10
385.8537951465
 20
-300.3065736145
 10
388.3313991325
 20
-301.7839542413
 10
390.6381521807
 20
-303.350818978
 10
392.7643789671
 20
-305.0005958492
 10
394.7011613577
 20
-306.7263651175
 10
396.440375814
 20
-308.5208883067
 10
397.9747274662
 20
-310.3766385631
 10
399.2977807103
 20
-312.2858322251
 10
400.4039862011
 20
-314.2404614709
 10
401.2887041284
 20
-316.2323279063
 10
401.9482236777
 20
-318.2530769513
 10
402.3797785948
 20
-320.2942328819
 10
402.5815587885
 20
-322.347234381
 10
402.5527179225
 20
-324.4034704468
 10
402.2933769654
 20
-326.4543165106
 10
401.8046236833
 20
-328.4911706113
 10
401.0885080773
 20
-330.5054894749
 10
400.1480337852
 20
-332.4888243481
 10
398.9871454829
 20
-334.4328564353
 10
397.6107123395
 20
-336.3294317901
 10
396.0245075939
 20
-338.1705955166
 10
394.23518434
 20
-339.9486251341
 10
392.2502476214
 20
-341.6560629685
 10
390.0780229525
 20
-343.2857474322
 10
387.7276213984
 20
-344.8308430622
 10
385.2089013602
 20
-346.2848691905
 10
382.532427225
 20
-347.6417271261
 10
379.7094250553
 20
-348.8957257353
 10
376.7517355035
 20
-350.0416053122
 10
373.6717641473
 20
-351.0745596397
 10
370.482429457
 20
-351.9902561482
 10
367.1971086107
 20
-352.7848540884
 10
363.8295813856
 20
-353.4550206404
 10
360.3939723614
 20
-353.9979448928
 10
356.9046916761
 20
-354.4113496325
 10
353.3763745856
 20
-354.6935008965
 10
349.8238200779
 20
-354.8432152443
 10
346.2619288013
 20
-354.8598647218
 10
342.7056405656
 20
-354.7433794955
 10
339.1698716796
 20
-354.4942481447
 10
335.6694523867
 20
-354.113515613
 10
332.219064662
 20
-353.6027788249
 10
328.8331806306
 20
-352.9641799881
 10
325.5260018669
 20
-352.2003976078
 10
322.3113998279
 20
-351.314635253
 10
319.2028576717
 20
-350.3106081187
 10
316.2134137045
 20
-349.1925274436
 10
313.355606693
 20
-347.9650828467
 10
310.6414232732
 20
-346.6334226572
 10
308.0822476734
 20
-345.2031323206
 10
305.6888139656
 20
-343.6802109718
 10
303.4711610425
 20
-342.0710462721
 10
301.4385905111
 20
-340.3823876175
 10
299.5996276786
 20
-338.6213178292
 10
297.9619857942
 20
-336.795223446
 10
296.5325336972
 20
-334.9117637423
 10
295.3172670063
 20
-332.9788386026
 10
294.3212829724
 20
-331.0045553867
 10
293.5487590986
 20
-328.9971949246
 10
293.0029356187
 20
-326.9651767836
 10
292.6861019058
 20
-324.9170239539
 10
292.5995868708
 20
-322.8613271004
 10
292.7437533878
 20
-320.8067085301
 10
293.1179967722
 20
-318.7617860272
 10
293.7207473173
 20
-316.7351367074
 10
294.5494768778
 20
-314.7352610423
 10
295.6007094739
 20
-312.7705472053
 10
296.8700358708
 20
-310.8492358892
 10
298.3521320724
 20
-308.9793857412
 10
300.0407816523
 20
-307.1688395628
 10
301.9289018272
 20
-305.4251914138
 10
304.008573165
 20
-303.7557547605
 10
306.2710728013
 20
-302.1675318003
 10
308.7069110264
 20
-300.6671840924
  0
LWPOLYLINE
  5
BA
330
1F
100
AcDbEntity
  8
0
  6
Continuous
 62
     7
370
    25
100
AcDbPolyline
 90
       88
 70
   128
 43
0.0
 10
315.7779788383
 20
-304.7492246515
 10
313.5648799736
 20
-306.1225878438
 10
311.529212912
 20
-307.5845593684
 10
309.6815906789
 20
-309.1275171826
 10
308.0316459213
 20
-310.7434170189
 10
306.587980687
 20
-312.4238343239
 10
305.3581215781
 20
-314.1600081796
 10
304.3484805105
 20
-315.9428869796
 10
303.5643212853
 20
-317.7631756194
 10
303.0097321456
 20
-319.6113839567
 10
302.6876044624
 20
-321.4778762893
 10
302.5996176602
 20
-323.3529215902
 10
302.7462304615
 20
-325.2267442414
 10
303.126678495
 20
-327.0895749995
 10
303.7389782808
 20
-328.9317019272
 10
304.5799375715
 20
-330.7435210278
 10
305.6451719945
 20
-332.5155863155
 10
306.929127911
 20
-334.2386590623
 10
308.4251113692
 20
-335.9037559648
 10
310.1253230041
 20
-337.5021959787
 10
312.0208986995
 20
-339.025645578
 10
314.1019558014
 20
-340.4661622019
 10
316.3576446417
 20
-341.8162356636
 10
318.7762051033
 20
-343.0688273054
 10
321.3450279318
 20
-344.2174066942
 10
324.0507204745
 20
-345.2559856692
 10
326.8791765032
 20
-346.1791495603
 10
329.8156497578
 20
-346.9820854186
 10
332.8448308266
 20
-347.6606071082
 10
335.9509269621
 20
-348.2111771312
 10
339.1177444172
 20
-348.6309250705
 10
342.328772872
 20
-348.9176625546
 10
345.5672715111
 20
-349.0698946671
 10
348.8163563021
 20
-349.0868277403
 10
352.0590880213
 20
-348.968373493
 10
355.278560567
 20
-348.7151494906
 10
358.4579891002
 20
-348.328475926
 10
361.5807975525
 20
-347.8103687361
 10
364.6307050468
 20
-347.1635290918
 10
367.5918107776
 20
-346.3913293156
 10
370.4486769107
 20
-345.4977952995
 10
373.1864090688
 20
-344.4875855161
 10
375.7907339843
 20
-343.3659667315
 10
378.2480739129
 20
-342.1387865467
 10
380.5456174219
 20
-340.8124429109
 10
382.6713861836
 20
-339.3938507657
 10
384.6142974237
 20
-337.8904059938
 10
386.3642217027
 20
-336.3099468599
 10
387.9120357258
 20
-334.6607131462
 10
389.2496699073
 20
-332.9513031936
 10
390.370150442
 20
-331.1906290742
 10
391.2676356631
 20
-329.3878701274
 10
391.9374464983
 20
-327.5524251038
 10
392.376090864
 20
-325.6938631637
 10
392.5812818717
 20
-323.8218739886
 10
392.5519497504
 20
-321.9462172633
 10
392.2882474243
 20
-320.0766717933
 10
391.7915497151
 20
-318.2229845232
 10
391.0644461747
 20
-316.3948197199
 10
390.1107275843
 20
-314.6017085884
 10
388.935366191
 20
-312.8529995797
 10
387.544489785
 20
-311.1578096529
 10
385.9453497517
 20
-309.5249767434
 10
384.1462832668
 20
-307.9630136858
 10
382.15666983
 20
-306.4800638324
 10
379.9868823644
 20
-305.083858597
 10
377.6482331372
 20
-303.7816771472
 10
375.1529147826
 20
-302.5803084541
 10
372.513936735
 20
-301.4860158978
 10
369.7450574042
 20
-300.504504613
 10
366.8607124447
 20
-299.6408917451
 10
363.8759394958
 20
-298.8996797717
 10
360.8062997814
 20
-298.2847330288
 10
357.6677969816
 20
-297.7992575639
 10
354.476793797
 20
-297.4457844214
 10
351.2499266404
 20
-297.2261564466
 10
348.0040189032
 20
-297.141518678
 10
344.7559932452
 20
-297.1923123777
 10
341.5227833683
 20
-297.378272731
 10
338.3212457317
 20
-297.6984302266
 10
335.1680716702
 20
-298.1511157116
 10
332.0797003734
 20
-298.7339690935
 10
329.0722331792
 20
-299.4439516447
 10
326.1613496288
 20
-300.2773618448
 10
323.3622257214
 20
-301.229854679
 10
320.6894547929
 20
-302.2964642908
 10
318.1569714334
 20
-303.4716298713
 10
315.7779788383
 20
-304.7492246515
  0
ELLIPSE
  5
BB
330
1F
100
AcDbEntity
  8
0
  6
Continuous
 62
     7
370
    25
100
AcDbEllipse
 10
347.5977839917
 20
-216.7857619175
 30
0.0
 11
54.83818285491583
 21
-10.2655003160173
 31
0.0
210
0.0
220
0.0
230
1.0
 40
0.4106849769
 41
0.0767277489784148
 42
3.218320402568243
  0
LWPOLYLINE
  5
BC
330
1F
100
AcDbEntity
  8
0
  6
Continuous
 62
     7
370
    25
100
AcDbPolyline
 90
       40
 70
   128
 43
0.0
 10
354.7478029349
 20
-75.6689256519
 10
357.009495463
 20
-75.9109463862
 10
359.4248235034
 20
-76.2461202334
 10
361.9836563309
 20
-76.6730413578
 10
364.6752613113
 20
-77.1899191039
 10
367.4883489181
 20
-77.7945855069
 10
370.411120084
 20
-78.4845043856
 10
373.4313156913
 20
-79.2567819805
 10
376.5362679898
 20
-80.1081790911
 10
379.7129537305
 20
-81.0351246619
 10
382.9480487896
 20
-82.0337307611
 10
386.2279840541
 20
-83.0998088877
 10
389.5390023355
 20
-84.2288875395
 10
392.8672160726
 20
-85.4162309683
 10
396.1986655803
 20
-86.6568590431
 10
399.5193776017
 20
-87.9455681386
 10
402.8154239164
 20
-89.276952961
 10
406.0729797608
 20
-90.6454292197
 10
409.2783818136
 20
-92.0452570496
 10
412.4181855046
 20
-93.4705650864
 10
415.479221406
 20
-94.9153750929
 10
418.4486504694
 20
-96.3736270337
 10
421.3140178774
 20
-97.8392044934
 10
424.0633052832
 20
-99.3059603309
 10
426.6849812201
 20
-100.7677424624
 10
429.1680494682
 20
-102.2184196657
 10
431.5020951761
 20
-103.6519072965
 10
433.6773285451
 20
-105.0621928093
 10
435.6846258905
 20
-106.4433609768
 10
437.5155679097
 20
-107.7896186996
 10
439.1624749955
 20
-109.0953193049
 10
440.6184394472
 20
-110.3549862307
 10
441.877354444
 20
-111.563335996
 10
442.9339396588
 20
-112.7153003622
 10
443.7837634062
 20
-113.8060475902
 10
444.4232612299
 20
-114.8310027071
 10
444.8497508538
 20
-115.785866695
 10
445.0614434322
 20
-116.6666345225
 10
445.057451053
 20
-117.4696119432
 10
444.9145130353
 20
-118.0145832779
  0
LWPOLYLINE
  5
BD
330
1F
100
AcDbEntity
  8
0
  6
Continuous
 62
     7
370
    25
100
AcDbPolyline
 90
       11
 70
   128
 43
0.0
 10
342.3628387651
 20
-78.2257141762
 10
342.6300145535
 20
-77.7193510964
 10
343.1711682339
 20
-77.124836394
 10
343.9240001802
 20
-76.6183833279
 10
344.8853527536
 20
-76.2021161383
 10
346.0511937072
 20
-75.8777807944
 10
347.4166330989
 20
-75.6467376713
 10
348.9759438014
 20
-75.5099558444
 10
350.7225855238
 20
-75.4680090239
 10
352.6492322436
 20
-75.5210731496
 10
354.7478029349
 20
-75.6689256519
  0
ENDSEC
  0
SECTION
  2
OBJECTS
  0
DICTIONARY
  5
C
330
0
100
AcDbDictionary
281
     1
  3
ACAD_GROUP
350
D
  3
ACAD_LAYOUT
350
1A
  3
ACAD_MLINESTYLE
350
17
  3
ACAD_PLOTSETTINGS
350
19
  3
ACAD_PLOTSTYLENAME
350
E
  3
ACAD_SCALELIST
350
47
  3
DWGPROPS
350
BE
  0
DICTIONARY
  5
D
102
{ACAD_REACTORS
330
C
102
}
330
C
100
AcDbDictionary
281
     1
  0
DICTIONARY
  5
1A
102
{ACAD_REACTORS
330
C
102
}
330
C
100
AcDbDictionary
281
     1
  3
Layout1
350
1E
  3
Layout2
350
26
  3
Model
350
22
  0
DICTIONARY
  5
17
102
{ACAD_REACTORS
330
C
102
}
330
C
100
AcDbDictionary
281
     1
  3
Standard
350
18
  0
DICTIONARY
  5
19
102
{ACAD_REACTORS
330
C
102
}
330
C
100
AcDbDictionary
281
     1
  0
ACDBDICTIONARYWDFLT
  5
E
102
{ACAD_REACTORS
330
C
102
}
330
C
100
AcDbDictionary
281
     1
  3
Normal
350
F
100
AcDbDictionaryWithDefault
340
F
  0
DICTIONARY
  5
47
102
{ACAD_REACTORS
330
C
102
}
330
C
100
AcDbDictionary
281
     1
  3
A0
350
48
  3
A1
350
49
  3
A2
350
4A
  3
A3
350
4B
  3
A4
350
4C
  3
A5
350
4D
  3
A6
350
4E
  3
A7
350
4F
  3
A8
350
50
  3
A9
350
51
  3
B0
350
52
  3
B1
350
53
  3
B2
350
54
  3
B3
350
55
  3
B4
350
56
  3
B5
350
57
  3
B6
350
58
  3
B7
350
59
  3
B8
350
5A
  3
B9
350
5B
  3
C0
350
5C
  3
C1
350
5D
  3
C2
350
5E
  3
C3
350
5F
  3
C4
350
60
  3
C5
350
61
  3
C6
350
62
  3
C7
350
63
  3
C8
350
64
  3
C9
350
65
  3
D0
350
66
  3
D1
350
67
  3
D2
350
68
  0
XRECORD
  5
BE
102
{ACAD_REACTORS
330
C
102
}
330
C
100
AcDbXrecord
280
     1
  1
DWGPROPS COOKIE
  2

  3

  4

  6

  7

  8
b.kav
  9

300
=
301
=
302
=
303
=
304
=
305
=
306
=
307
=
308
=
309
=
 40
0.0
 41
2460682.394533241
 42
2460682.39453346
  1

 90
        0
  0
LAYOUT
  5
1E
102
{ACAD_REACTORS
330
1A
102
}
330
1A
100
AcDbPlotSettings
  1

  2
none_device
  4

  6

 40
0.0
 41
0.0
 42
0.0
 43
0.0
 44
0.0
 45
0.0
 46
0.0
 47
0.0
 48
0.0
 49
0.0
140
0.0
141
0.0
142
1.0
143
1.0
 70
   688
 72
     1
 73
     0
 74
     5
  7

 75
    16
147
1.0
148
0.0
149
0.0
100
AcDbLayout
  1
Layout1
 70
     1
 71
     1
 10
0.0
 20
0.0
 11
420.0
 21
297.0
 12
0.0
 22
0.0
 32
0.0
 14
1.0000000000E+20
 24
1.0000000000E+20
 34
1.0000000000E+20
 15
-1.0000000000E+20
 25
-1.0000000000E+20
 35
-1.0000000000E+20
146
0.0
 13
0.0
 23
0.0
 33
0.0
 16
1.0
 26
0.0
 36
0.0
 17
0.0
 27
1.0
 37
0.0
 76
     0
330
1B
  0
LAYOUT
  5
26
102
{ACAD_REACTORS
330
1A
102
}
330
1A
100
AcDbPlotSettings
  1

  2
none_device
  4

  6

 40
0.0
 41
0.0
 42
0.0
 43
0.0
 44
0.0
 45
0.0
 46
0.0
 47
0.0
 48
0.0
 49
0.0
140
0.0
141
0.0
142
1.0
143
1.0
 70
   688
 72
     1
 73
     0
 74
     5
  7

 75
    16
147
1.0
148
0.0
149
0.0
100
AcDbLayout
  1
Layout2
 70
     1
 71
     2
 10
0.0
 20
0.0
 11
0.0
 21
0.0
 12
0.0
 22
0.0
 32
0.0
 14
0.0
 24
0.0
 34
0.0
 15
0.0
 25
0.0
 35
0.0
146
0.0
 13
0.0
 23
0.0
 33
0.0
 16
1.0
 26
0.0
 36
0.0
 17
0.0
 27
1.0
 37
0.0
 76
     0
330
23
  0
LAYOUT
  5
22
102
{ACAD_REACTORS
330
1A
102
}
330
1A
100
AcDbPlotSettings
  1

  2
none_device
  4
Letter_(8.50_x_11.00_Inches)
  6

 40
6.35
 41
6.35
 42
6.35000508
 43
6.35000508
 44
215.9
 45
279.4
 46
0.0
 47
0.0
 48
0.0
 49
0.0
140
0.0
141
0.0
142
1.0
143
1.0
 70
  1712
 72
     1
 73
     0
 74
     0
  7

 75
     0
147
1.0
148
0.0
149
0.0
100
AcDbLayout
  1
Model
 70
     1
 71
     0
 10
0.0
 20
0.0
 11
279.4
 21
215.9
 12
0.0
 22
0.0
 32
0.0
 14
0.0
 24
0.0
 34
0.0
 15
279.4
 25
215.9
 35
0.0
146
0.0
 13
0.0
 23
0.0
 33
0.0
 16
1.0
 26
0.0
 36
0.0
 17
0.0
 27
1.0
 37
0.0
 76
     0
330
1F
331
29
  0
MLINESTYLE
  5
18
102
{ACAD_REACTORS
330
17
102
}
330
17
100
AcDbMlineStyle
  2
Standard
 70
     0
  3

 62
   256
 51
90.0
 52
90.0
 71
     2
 49
0.5
 62
   256
  6
BYLAYER
 49
-0.5
 62
   256
  6
BYLAYER
  0
ACDBPLACEHOLDER
  5
F
102
{ACAD_REACTORS
330
E
102
}
330
E
  0
SCALE
  5
48
102
{ACAD_REACTORS
330
47
102
}
330
47
100
AcDbScale
 70
     0
300
1:1
140
1.0
141
1.0
290
     1
  0
SCALE
  5
49
102
{ACAD_REACTORS
330
47
102
}
330
47
100
AcDbScale
 70
     0
300
1:2
140
1.0
141
2.0
290
     0
  0
SCALE
  5
4A
102
{ACAD_REACTORS
330
47
102
}
330
47
100
AcDbScale
 70
     0
300
1:4
140
1.0
141
4.0
290
     0
  0
SCALE
  5
4B
102
{ACAD_REACTORS
330
47
102
}
330
47
100
AcDbScale
 70
     0
300
1:5
140
1.0
141
5.0
290
     0
  0
SCALE
  5
4C
102
{ACAD_REACTORS
330
47
102
}
330
47
100
AcDbScale
 70
     0
300
1:8
140
1.0
141
8.0
290
     0
  0
SCALE
  5
4D
102
{ACAD_REACTORS
330
47
102
}
330
47
100
AcDbScale
 70
     0
300
1:10
140
1.0
141
10.0
290
     0
  0
SCALE
  5
4E
102
{ACAD_REACTORS
330
47
102
}
330
47
100
AcDbScale
 70
     0
300
1:16
140
1.0
141
16.0
290
     0
  0
SCALE
  5
4F
102
{ACAD_REACTORS
330
47
102
}
330
47
100
AcDbScale
 70
     0
300
1:20
140
1.0
141
20.0
290
     0
  0
SCALE
  5
50
102
{ACAD_REACTORS
330
47
102
}
330
47
100
AcDbScale
 70
     0
300
1:30
140
1.0
141
30.0
290
     0
  0
SCALE
  5
51
102
{ACAD_REACTORS
330
47
102
}
330
47
100
AcDbScale
 70
     0
300
1:40
140
1.0
141
40.0
290
     0
  0
SCALE
  5
52
102
{ACAD_REACTORS
330
47
102
}
330
47
100
AcDbScale
 70
     0
300
1:50
140
1.0
141
50.0
290
     0
  0
SCALE
  5
53
102
{ACAD_REACTORS
330
47
102
}
330
47
100
AcDbScale
 70
     0
300
1:100
140
1.0
141
100.0
290
     0
  0
SCALE
  5
54
102
{ACAD_REACTORS
330
47
102
}
330
47
100
AcDbScale
 70
     0
300
2:1
140
2.0
141
1.0
290
     0
  0
SCALE
  5
55
102
{ACAD_REACTORS
330
47
102
}
330
47
100
AcDbScale
 70
     0
300
4:1
140
4.0
141
1.0
290
     0
  0
SCALE
  5
56
102
{ACAD_REACTORS
330
47
102
}
330
47
100
AcDbScale
 70
     0
300
8:1
140
8.0
141
1.0
290
     0
  0
SCALE
  5
57
102
{ACAD_REACTORS
330
47
102
}
330
47
100
AcDbScale
 70
     0
300
10:1
140
10.0
141
1.0
290
     0
  0
SCALE
  5
58
102
{ACAD_REACTORS
330
47
102
}
330
47
100
AcDbScale
 70
     0
300
100:1
140
100.0
141
1.0
290
     0
  0
SCALE
  5
59
102
{ACAD_REACTORS
330
47
102
}
330
47
100
AcDbScale
 70
     0
300
1/128" = 1'-0"
140
0.0078125
141
12.0
290
     0
  0
SCALE
  5
5A
102
{ACAD_REACTORS
330
47
102
}
330
47
100
AcDbScale
 70
     0
300
1/64" = 1'-0"
140
0.015625
141
12.0
290
     0
  0
SCALE
  5
5B
102
{ACAD_REACTORS
330
47
102
}
330
47
100
AcDbScale
 70
     0
300
1/32" = 1'-0"
140
0.03125
141
12.0
290
     0
  0
SCALE
  5
5C
102
{ACAD_REACTORS
330
47
102
}
330
47
100
AcDbScale
 70
     0
300
1/16" = 1'-0"
140
0.0625
141
12.0
290
     0
  0
SCALE
  5
5D
102
{ACAD_REACTORS
330
47
102
}
330
47
100
AcDbScale
 70
     0
300
3/32" = 1'-0"
140
0.09375
141
12.0
290
     0
  0
SCALE
  5
5E
102
{ACAD_REACTORS
330
47
102
}
330
47
100
AcDbScale
 70
     0
300
1/8" = 1'-0"
140
0.125
141
12.0
290
     0
  0
SCALE
  5
5F
102
{ACAD_REACTORS
330
47
102
}
330
47
100
AcDbScale
 70
     0
300
3/16" = 1'-0"
140
0.1875
141
12.0
290
     0
  0
SCALE
  5
60
102
{ACAD_REACTORS
330
47
102
}
330
47
100
AcDbScale
 70
     0
300
1/4" = 1'-0"
140
0.25
141
12.0
290
     0
  0
SCALE
  5
61
102
{ACAD_REACTORS
330
47
102
}
330
47
100
AcDbScale
 70
     0
300
3/8" = 1'-0"
140
0.375
141
12.0
290
     0
  0
SCALE
  5
62
102
{ACAD_REACTORS
330
47
102
}
330
47
100
AcDbScale
 70
     0
300
1/2" = 1'-0"
140
0.5
141
12.0
290
     0
  0
SCALE
  5
63
102
{ACAD_REACTORS
330
47
102
}
330
47
100
AcDbScale
 70
     0
300
3/4" = 1'-0"
140
0.75
141
12.0
290
     0
  0
SCALE
  5
64
102
{ACAD_REACTORS
330
47
102
}
330
47
100
AcDbScale
 70
     0
300
1" = 1'-0"
140
1.0
141
12.0
290
     0
  0
SCALE
  5
65
102
{ACAD_REACTORS
330
47
102
}
330
47
100
AcDbScale
 70
     0
300
1-1/2" = 1'-0"
140
1.5
141
12.0
290
     0
  0
SCALE
  5
66
102
{ACAD_REACTORS
330
47
102
}
330
47
100
AcDbScale
 70
     0
300
3" = 1'-0"
140
3.0
141
12.0
290
     0
  0
SCALE
  5
67
102
{ACAD_REACTORS
330
47
102
}
330
47
100
AcDbScale
 70
     0
300
6" = 1'-0"
140
6.0
141
12.0
290
     0
  0
SCALE
  5
68
102
{ACAD_REACTORS
330
47
102
}
330
47
100
AcDbScale
 70
     0
300
1'-0" = 1'-0"
140
12.0
141
12.0
290
     0
  0
ENDSEC
  0
EOF
